-------------------------------------------------------------------------------------------------------------------
01-11-2019: **-----------------------NOTICE - PENSION ADALAT----------------------**
The pension adalat in respect of Telecom/BSNL Pensioners/
Family pensioners residing in / drawing pension
in Kerala Telecom Circle will be held on 06/12/2019
at the BSNL conference hall of O/o GM Telecommunication, Kozhicode at 10:30am.
Applications from the pensioners regarding their grievances in the prescribed format
to be dealt in the said Adalat, will be received in this office till 31/11/2019.
It is requested that adequate publicity regarding the Pension Adalat may please
be arranged to be given amongst all pensioners.
The Pensioners may also send their grievances to Joint Controller of
Communication Accounts(Pension) email is jtccatrivandrum@nic.in,
Doorsanchar Bhavan, PMG Junction, Trivandrum-695033
FORM FOR RAISING GRIEVANCE
(s/d) CIRCLE SECRETARY
-------------------------------------------------------------------------------------------------------------------
22-10-2019: CIRCLE EXECUTIVE MEETING 21-11-2019
------------------------------------------------------------
DOT-BSNL Pensioner's Association Kerala, Circle excecutive
meeting will be held on 21-11-2019(Thursday) at Woodland Lodge Conference Hall,
Cherthala at 10 am. . All circle excecutive
members are requested to attend the same on time
Agenda
-------------
---Prayer
---Welcome
---Presidential address
---Minutes of previous meeting
---Working Report & audited accounts
---Organisational matters.
---Any other items with permission of chair
---Vote of thanks
---National Anthem
                                ( s/d )
22-10-2019        CIRCLE SECRETARY
------------------------------------------------------------
-------------------------------------------------------------------------------------------------------------------
01-10-2019:- INCREASE IN IDA W.E.F. 1.10.2019:
According to calculations based on All India Consumer Price Index for
Industrial Workers, IDA is to increase w.e.f. 1.10.2019 by 5.3% for
CPSEs where last pay revision was implemented w.e.f. 1.1.2007 and
by 8.9% where last pay revision was implemented w.e.f. 1.1.1997.
-------------------------------------------------------------------------------------------------------------------
27-07-2019: **-----------------------NOTICE----------------------**
The pension adalat in respect of Telecom/BSNL Pensioners/
Family pensioners residing in / drawing pension
in Kerala Telecom Circle will be held on 23/08/2019
at the conference hall of O/o PGMT, trivandrum at 10:30am.
Applications from the pensioners regarding their grievances in the prescribed format
to be dealt in the said Adalat, will be received in this office till 31/07/2019.
It is requested that adequate publicity regarding the Pension Adalat may please
be arranged to be given amongst all pensioners.
The Pensioners may also send their grievances to Joint Controller of
Communication Accounts(Pension) email is jtccatrivandrum@nic.in,
Doorsanchar Bhavan, PMG Junction, Trivandrum-695033
FORM FOR RAISING GRIEVANCE
(s/d) CIRCLE SECRETARY
-------------------------------------------------------------------------------------------------------------------
26:06:2019 CIRCLE EXECUTIVE MEETING 30-08-2019
------------------------------------------------------------
DOT-BSNL Pensioner's Association Kerala, Circle excecutive
meeting will be held on 30-08-2019(Friday) at Pandi Samooha Madom Hall,
Thrissur at 10:30am. . All circle excecutive
members are requested to attend the same on time
Agenda
-------------
---Prayer
---Welcome
---Presidential address
---Minutes of previous meeting
---Working Report & audited accounts
---Organisational matters.
---Any other items with permission of chair
---Vote of thanks
---National Anthem
                                ( s/d )
27-03-2019        CIRCLE SECRETARY
------------------------------------------------------------
08-05-2019:-------------------** 12th CIRCLE CONFERENCE *** -------------------
DoT-BSNL PA Kerala Circle 12th Circle Conference will be held on 28-05-2019 at
Thiruvalla, Paliakkara Saint George Parish Hall.
Click here for the notice
----------------------------------------------------------------------------------------
27:03:2019 CIRCLE EXECUTIVE MEETING 30-04-2019
------------------------------------------------------------
DOT-BSNL Pensioner's Association Kerala, Circle excecutive
meeting will be held on 30-04-2019(Tuesday) at Sreerangam Auditorium,
Thekkenada, Thirunakkara, Kottayam at 10:00am.. All circle excecutive
members are requested to attend the same on time
Agenda
-------------
---Prayer
---Welcome
---Presidential address
---Minutes of previous meeting
---Working Report & audited accounts
---Organisational matters. 12th Circle Conference at Thiruvalla
---Any other items with permission of chair
---Vote of thanks
---National Anthem
                                ( s/d )
27-03-2019        CIRCLE SECRETARY
------------------------------------------------------------
02-03-2019: **-----------------------NOTICE----------------------**
It is proposed to hold the pension adalat in respect of Telecom/
BSNL Pensioners/Family pensioners residing in / drawing pension from
Post Offices/Banks and retired from the SSAs jurisdiction of the following
four SSAs to be held on 26/04/2019 at BSNL Conference Hall, O/o the Pr. General Manager,
Telecommunication,BSNL Bhavan, Ernakulam at 10:30 AM.
1. Ernakulam
2. Thrissur
3. Palakkad
4. Kottayam
Applications from the pensioners regarding their grievances in the prescribed format
to be dealt in the said Adalat, will be received in this office till 25/03/2019.
It is requested that adequate publicity regarding the Pension Adalat may please
be arranged to be given amongst all pensioners.
The Pensioners may also send their grievances to Joint Controller of
Communication Accounts(Pension) email is jtccatrivandrum@nic.in,
Doorsanchar Bhavan, PMG Junction, Trivandrum-695033
FORM FOR RAISING GRIEVANCE
(s/d) CIRCLE SECRETARY
-------------------------------------------------------------------------------------------------------------------
10-02-2019:- CBMPA LETTER TO HONOURABLE PRIME MINISTER
------------------------------------------------------------
(Click here to View the letter)
------------------------------------------------------------
31-01-2019: POST CARD Campaign
Please see the two attachments given below.
(cards.pdf)
(card-matter.pdf)
------------------------------------------------------------
30-01.2019: CBMPA meeting held at NewDehi on 29-01-2019 decided
the following (Click here to View the details)
------------------------------------------------------------
27-01-2019: Circle executive committee meeting held at Trivandrum, discussed
the letter received from the convener CBMPA (Click here for the letter).
As per the decision of CEC, the following letter was sent
to the convener CBMPA Click here for the letter sent
------------------------------------------------------------
04-01-2019:- CIRCLE EXECUTIVE MEETING on 24-01-2019
------------------------------------------------------------
DOT-BSNL Pensioner's Association Kerala, Circle excecutive Committee
meeting will be held on 24-01-2019(Thursday) at Fort Rajadhani Roof Top Auditorium,
East Fort, Trivandrum at 10:30am. All circle excecutive members are
requested to attend the same on time
Agenda
-------------
---Prayer
---Welcome
---Presidential address
---Minutes of previous meeting
---Working Report
---Organisational matters
---Any other items with permission of chair
---Vote of thanks
---National Anthem
                                ( s/d )
04-01-2019        CIRCLE SECRETARY
------------------------------------------------------------
>
------------------------------------------------------------
12-11-2018: PENTION ADALAT on 18-01-2019
Click here to View the details
------------------------------------------------------------
14-10-2018:- Sri. PJ Vargheese(75) Rtd. DGM , Kottayam SSA, our association
founder leader expired this morning at kottayam.
The funeral will be held on 15-10-2018 at 3 PM at Kottayam.
We express our heart-felt condolence on the sudden demise.
-------------------------------------------------------------------------------------------------------------------
10:10:2018 CIRCLE EXECUTIVE MEETING on 09-11-2018
------------------------------------------------------------
DOT-BSNL Pensioner's Association Kerala, Circle excecutive Committee
meeting will be held on 09-11-2018(Friday) at Mela Auditorium(Near Nehru Park),
Velloorkunnu,Moovattupuzha at 10:30am. All circle excecutive members are
requested to attend the same on time
Agenda
-------------
---Prayer
---Welcome
---Presidential address
---Minutes of previous meeting
---Working Report
---Organisational matters
---Any other items with permission of chair
---Vote of thanks
---National Anthem
                                ( s/d )
18-08-2018        CIRCLE SECRETARY
------------------------------------------------------------
04.10.2018: REVISION OF IDA W.E.F. 1.10.2018: DPE has issued orders
revising IDA w.e.f 1.10.2018 from 128% to 135.6% for CPSEs where
last pay revision was implemented w.e.f. 1.1.2007.
Click here to View orders
------------------------------------------------------------
18:08:2018 CIRCLE EXECUTIVE MEETING 07-09-2018
------------------------------------------------------------
DOT-BSNL Pensioner's Association Kerala, Circle excecutive
meeting will be held on 07-09-2018(Friday) at Sopanam Auditorium,
Kollam at 10am. All circle excecutive members are
requested to attend the same on time
Agenda
-------------
---Prayer
---Welcome
---Presidential address
---Minutes of previous meeting
---Working Report
---Organisational matters
---Any other items with permission of chair
---Vote of thanks
---National Anthem
                                ( s/d )
18-08-2018        CIRCLE SECRETARY
------------------------------------------------------------
17-08-2018 : --------------------------------PENSION ADALAT ----------------------**
It is proposed to hold the pension adalat in respect of Telecom/
BSNL Pensioners/Family pensioners residing in / drawing pension from
Post Offices/Banks and retired from BSNL entire circle to be held
on 18/09/2018 at BSNL Conference Hall, O/o the Principal General Manager,
Telecommunication, BSNL Bhavan, Trivandrum at 2:30 PM.
Click here to View more details
-------------------------------------------------------------------------------------------------------------------
15-07-2018: MEDICAL ALLOWANCE (WITHOUT VOUCHER) FACILITY FOR THE RETIRED EMPLOYEES:
BSNL has now issued an order allowing continuation of Medical Allowance (without voucher)
facility to its retired employees. Simultaneously, it has ordered drastic cut
in the entitled amount. The quantum of allowance has now been reduced from
existing 50% to 25% of the annual ceiling w.e.f. 01.04.2018 subject to minimum
allowance payable Rs 12000/- per annum. The payments will continue to be made on
quarterly basis. Click here to View the BSNL order
-------------------------------------------------------------------------------------------------------------------
01-07-2018: IDA Increase of 0.8% from 127.2% to 128%.
All India Consumer Price for Industrial Workers (AICPI)
for May,2018 is announced.It is 289 points with 1 point
increase from April. Based on this, the rate of IDA
applicable from July 2018 is 128%.
-------------------------------------------------------------------------------------------------------------------
18-06-2018**----------KNOW YOUR PENSIONER FORM----------------------**
Please be advised that Pensioners are required to furnish information in the KYP form
along with the supporting documents by 31-07-2018.
Click here for 'KYP FORM'
11-06-2018 : --------------------------------PENSION ADALAT ----------------------**
It is proposed to hold the pension adalat in respect of Telecom/
BSNL Pensioners/Family pensioners residing in / drawing pension from
Post Offices/Banks and retired from the SSAs jurisdiction of the following
four SSAs to be held on 17/07/2018 at BSNL Conference Hall, O/o the General Manager,
Telecommunication, Thiruvalla at 2:30 PM.
1. Thiruvananthapuram
2. Kollam
3. Alappuzha
4. Pathanamthitta
Applications from the pensioners regarding their grievances in the prescribed format
to be dealt in the said Adalat, will be received in this office till 20/06/2018.
It is requested that adequate publicity regarding the Pension Adalat may please
be arranged to be given amongst all pensioners.
The Pensioners may also send their grievances to jtccatrivandrum@nic.in
FORM FOR RAISING GRIEVANCE
(s/d) CIRCLE SECRETARY
-------------------------------------------------------------------------------------------------------------------
26-04-2018:BSNL Corporate Office has issued the order for payment
of quarterly allowance up to March 2018. We have to take further
action for extending the same beyond March 2018.
------------------------------------------------------------
18-04-2018:-------------------** 11th CIRCLE CONFERENCE *** -------------------
DoT-BSNL PA Kerala Circle 11th CIRCLE CONFERENCE WILL BE HELD ON 29-05-2018 AT KOTTAYAM
Click here for the notice
----------------------------------------------------------------------------------------
31-03-2018: The All India Consumer Price Index for February 2018 is 287,
according to Labour Bureau. It was 286 for December 2017 and 288 for January 2018.
Hence, the average for 3 months (December, January & February) is 287.
Based on that an increase of 0.3%, now the rate of IDA effective from 1-4-2018 will be 127.2%.
------------------------------------------------------------
CIRCLE EXECUTIVE MEETING 16-04-2018
------------------------------------------------------------
DOT-BSNL Pensioner's Association Kerala, pre-circle conference
Circle excecutive meeting will be held on 16-04-2018(Monday)
at Brother's Hotel, Allapuzha at 10am. All circle excecutive members are
requested to attend the same on time
Agenda
-------------
---Prayer
---Welcome
---Presidential address
---Minutes of previous meeting
---Working Report
---Audited Accounts
---Organisational matters
---Any other items with permission of chair
---Vote of thanks
---National Anthem
-----------------------------------------------------            ( s/d )
15-03-2018 -------------------------------------- CIRCLE SECRETARY
------------------------------------------------------------
15-01-2018:- DOT-BSNL Pensioner's Association Kerala Circle excecutive meeting will
be held on 08-02-2018(Thursday) at Pandi Samooha Madom Hall, Thrissur at 10:00am.
All circle excecutive members are requested to attend the same on time
Agenda
-------------
---Prayer
---Welcome
---Presidential address
---Minutes of previous meeting
---Working Report
---Accounts
---Organisational matters
---Any other items with permission of chair
---Vote of thanks
---National Anthem
(s/d) CIRCLE SECRETARY
------------------------------------------------------------
03-01-2018: REVISION OF IDA W.E.F. 1.1.2018: DPE has issued orders
revising IDA w.e.f 1.1.2018 from 124.3% to 126.9% for CPSEs where
last pay revision was implemented w.e.f. 1.1.2007.Click here to view orders
------------------------------------------------------------
03-01-2018: REVISION OF IDA W.E.F. 1.1.2018: DPE has issued orders
revising IDA w.e.f 1.1.2018 from 278.7% to 283.1% for CPSEs where
last pay revision was implemented w.e.f. 1.1.1997. Click here to view orders
------------------------------------------------------------
------------------------------------------------------------
29.12.2017: INCREASE IN IDA W.E.F. 1.1.2018: According to calculations
based on All India Consumer Price Index for Industrial Workers,
IDA is to increase w.e.f. 1.1.2018 by 2.6% for CPSEs
where last pay revision was implemented w.e.f. 1.1.2007 and by 4.4%
where last pay revision was implemented w.e.f. 1.1.1997.
22-12-2017: **-----------------------NOTICE----------------------**
It is proposed to hold the pension adalat in respect of Telecom/
BSNL Pensioners/Family pensioners residing in / drawing pension from
Post Offices/Banks and retired from the SSAs jurisdiction of the following
four SSAs to be held on 15/02/2018 at BSNL Conference Hall, O/o the Pr. General Manager,
Telecommunication,BSNL Bhavan, Ernakulam at 2:30 PM.
1. Ernakulam
2. Thrissur
3. Palakkad
4. Kottayam
Applications from the pensioners regarding their grievances in the prescribed format
to be dealt in the said Adalat, will be received in this office till 19/01/2018.
It is requested that adequate publicity regarding the Pension Adalat may please
be arranged to be given amongst all pensioners.
The Pensioners may also send their grievances to Shri. K. Dilip Kumar, Asst. Controller of
Communication Accounts(Pension), email-d: saocash.ccatvm@gov.in, (Mob:9447588200),
who is the Pension Adalat Officer of this office.
FORM FOR RAISING GRIEVANCE
(s/d) CIRCLE SECRETARY
-------------------------------------------------------------------------------------------------------------------
04-11-2017:**-------------------------------------------------------------------
DOT-BSNL Pensioner's Association Kerala Circle excecutive meeting will be held on 21-11-2017(Tuesday)
at Sreerangam Auditorium, Thekkenada, Thirunakkara, Kottayam at 10:00am. All circle excecutive members
are requested to attend the same on time
Agenda
-------------
---Prayer
---Welcome
---Presidential address
---Minutes of previous meeting
---Working Report
---Accounts
---Organisational matters
---Any other items with permission of chair
---Vote of thanks
---National Anthem
(s/d) CIRCLE SECRETARY
----------------------------------------------------------------------
13-09-2017: **-----------------------NOTICE----------------------**
It is proposed to hold the pension adalat in respect of Telecom/
BSNL Pensioners/Family pensioners residing in / drawing pension from
Post Offices/Banks and retired from the SSAs jurisdiction of the following
four SSAs to be held on 27/10/2017 at BSNL Conference Hall, O/o the Pr. General Manager,
Telecommunication,Balan K. Nair Road, Kozhicode at 2:30 PM.
1. Kozhicode
2. Kannur
3. Malapuram
Applications from the pensioners regarding their grievances in the prescribed format
to be dealt in the said Adalat, will be received in this office till 06/10/2017.
It is requested that adequate publicity regarding the Pension Adalat may please
be arranged to be given amongst all pensioners.
The Pensioners may also send their grievances to Shri. Nahas Ali, Asst. Controller of
Communication Accounts(Pension), email-d: nahas.ali@gov.in, (Mob:7907675949),
who is the Pension Adalat Officer of this office.
FORM FOR RAISING GRIEVANCE
(s/d) CIRCLE SECRETARY
-------------------------------------------------------------------------------------------------------------------
05-08-2017:**-------------------------------------------------------------------
DOT-BSNL Pensioner's Association Kerala Circle excecutive meeting will be held on 21-08-2017(Monday)
at KG Adiyodi Memorial Hall, Near Press Club, Trivandrum at 10:30am. All circle excecutive members
are requested to attend the same on time
Agenda
-------------
---Prayer
---Welcome
---Presidential address
---Minutes of previous meeting
---Working Report
---Accounts
---Organisational matters
---Any other items with permission of chair
---Vote of thanks
---National Anthem
(s/d) CIRCLE SECRETARY
----------------------------------------------------------------------
24-05-2017:The 10th c/c of DOT-BSNL PENSIONERS ASOCIATION Concluded
at Allapuzha on 24-05-2017 elected the following office bearers for the next term
PRESIDENT:----------------------Sri K.SREEKANTAN NAIER
VICE PRESIDENTS:------------1.Sri.P.G.UNNITHAN (Kottarakara)
----------------------------2.Sri.P.R.C.NAIR (Thiruvalla)
----------------------------3.Sri.M.P.YOYAK
CIRCLE SECRATARY:-----------Sri.G.N.HARIHARAN NAIR.
ASSISTANT CIRCLE SECRATARY--Sri M.P.GEORGE
JOINT SECRATARIES:- --
----------------------------1..Sri. R.M.Ravindranath( Kottayam)
----------------------------2.Sri.N.K.PUSHPANGADAN .(Thrissur)
----------------------------3.Sri.K.GOPINATHAPILLA (Alappuzha)
ORGANISING SECRATARIES:-
----------------------------1.Sri.K.G.KRISHNSKUMAR (Kollam)
----------------------------2.Sri.J.J.SARMA.(Thrissur)
----------------------------3.Sri.JOSE SEBASTIAN(Kottayam)
----------------------------4.Smt.K.M.MARY(Moovattupuzha)
TREAURER--------------------Sri.M.REGHUNATHAN NAIR
AUDITOR---------------------Sri.M. Gopinathan Nair
-----------------------------------------------------------------------------------------------
01-05-2017: **-----------------------NOTICE----------------------**
It is proposed to hold the pension adalat in respect of Telecom/
BSNL Pensioners/Family pensioners residing in / drawing pension from
Post Offices/Banks and retired from the SSAs jurisdiction of the following
four SSAs to be held on 21/07/2017 at BSNL Conference Hall, O/o the General Manager,
Telecommunication, Thiruvalla at 2:30 PM.
1. Thiruvananthapuram
2. Kollam
3. Alappuzha
4. Pathanamthitta
Applications from the pensioners regarding their grievances in the prescribed format
to be dealt in the said Adalat, will be received in this office till 07/07/2017.
It is requested that adequate publicity regarding the Pension Adalat may please
be arranged to be given amongst all pensioners.
The Pensioners may also send their grievances to Shri. Nahas Ali, Asst. Controller of
Communication Accounts(Pension), email-d: nahas.ali@gov.in, (Mob:7907675949),
who is the Pension Adalat Officer of this office.
FORM FOR RAISING GRIEVANCE
(s/d) CIRCLE SECRETARY
-------------------------------------------------------------------------------------------------------------------
01-05-2017:**-------------------------------------------------------------------
DoT-BSNL PA Kerala Circle 10th CIRCLE CONFERENCE WILL BE HELD ON 24-05-2017 AT ALLAPUZHA
Click here for the notice
-----------------------------------------------------------------------------------------------**
19-04-2017:**** CEC MEETING POSTPONED **-----------------------
DOT-BSNL Pensioner's Association Kerala Circle excecutive meeting scheduled
for 20th April has now been postponed to 27-04-2017.
The venue and time of the meeting remain the same.
------------------------------------------------------------------------------------------------
18-04-2017: **----------------------------------------------------------------------------**
Our Circle president Sri. K. Sreekandan nair lost his brother Sri. K. Balakrishnan Nair
today(18-04-2017) at 5pm. Cremation at Shanthi Kavadam on 19-04-2017 at 11am.
Our heart felt condolence to the bereaved family.
------------------------------------------------------------------------------------------**
18-04-2017:**** CEC MEETING POSTPONED **-----------------------
DOT-BSNL Pensioner's Association Kerala Circle excecutive meeting scheduled
for 20th April has now been postponed. New date will be intimated later
------------------------------------------------------------------------------------------------
17-04-2017:**---------RESTORATION OF MRS WITHOUT VOUCHER FACILITY FOR O/D TREATEMENT -----------***
BSNL CORPORATE OFFICE HAS ORDERED RESTORATION OF MRS WITHOUT VOUCHER FACILITY
FOR BSNL PENSIONERS FROM 1st APRIL.Click here to see the order
-----------------------------------------------------------------------------------------------**
09-04-17:Sri. P.N.G. Kaimal(70 yrs),one of the founder member of our association passed away on 9th April 2017.
Cremation at Thodupuzha on 10th April. Our heart felt condolence to the bereaved family.
31-03-2017: **-----------------------NOTICE----------------------**
DOT-BSNL Pensioner's Association Kerala Circle excecutive meeting will be held on 20-04-2017(Thursday)
at Hotel Nadan Plaza, Market Jn., Kottarakkara at 10am. All circle excecutive members are requested to attend the same on time
Agenda
-------------
---Prayer
---Welcome
---Presidential address
---Minutes of previous meeting
---Working Report
---Audited Accounts
---Organisational matters
---Any other items with permission of chair
---Vote of thanks
---National Anthem
(s/d) CIRCLE SECRETARY
--------------------------------------------------------------------------------------------------
16-03-2017: DOT HAS ISSUED ORDERS RAISING THE CEILING OF DEATH/RETIREMENT GRATUITY
TO RUPEES TWENTY LAKH WITH EFFECT FROM 1-1-2016.
THE MINIMUM PENSION IS NOT RAISED. IT IS DELIBERATE.
Click here to see the order
-----------------------------------------------------------------------------------
13-03-2017: REVISED TARGET DATES WERE FIXED FOR 78.2% DA PENSION REVISION.
Click here for the order
--------------------------------------------------------------------------------------------------
13-03-2017:Informations regarding filing of IT returns are given in the attached File.
Click here to see the details
--------------------------------------------------------------------------------------------------
13-03-2017: ****---------------CHANGE OF DATE-----------------******
Kindly note the date of pension adalat to be held on 07/04/2017 has now been
Postponed to 21-04-2017 at the same venue. All other things will remain the same.
-----------------------------------------------------------------------------------
26-02-2017: **-----------------------NOTICE----------------------**
It is proposed to hold the pension adalat in respect of Telecom/
BSNL Pensioners/Family pensioners residing in / drawing pension from
Post Offices/Banks and retired from the SSAs jurisdiction of the following
four SSAs to be held on 07/04/2017 at BSNL Conference Hall, O/o the Pr. General Manager,
Telecommunication,BSNL Bhavan, Ernakulam at 2:30 PM.
1. Ernakulam
2. Thrissur
3. Palakkad
4. Kottayam
Applications from the pensioners regarding their grievances in the prescribed format
to be dealt in the said Adalat, will be received in this office till 20/03/2017.
It is requested that adequate publicity regarding the Pension Adalat may please
be arranged to be given amongst all pensioners.
The Pensioners may also send their grievances to Shri. Nahas Ali, Asst. Controller of Communication,
Accounts(Pension). email-d: nahas.ali@gov.in, (Mob:7907675949),who is the Pension Adalat Officer of this office.
(s/d) CIRCLE SECRETARY
-------------------------------------------------------------------------------------------------------------------
14-02-2017:- Sri. PRC Nair, Vice President, DoT,BSNLPA-Kerala, has lost his wife on 13-02-2017.
The cremation will be held on 15-02-2017 at 2 PM in Pullad, near Thiruvalla.
We express our heart-felt condolence on the sudden demise.
-------------------------------------------------------------------------------------------------------------------
18-12-2016: Revision of Pre-2007 (IDA) Pension cases Click here for more details
-------------------------------------------------------------------------------------------------------------------
01-12-2016: **-----------------------NOTICE----------------------**
DOT-BSNL Pensioner's Association Kerala Circle excecutive meeting will be held on 23-12-2016(Friday)
at YMCA Hall, Thiruvalla at 10am. All circle excecutive members are requested to attend the same on time
Agenda
-------------
---Prayer
---Homage to departed members
---Welcome
---Presidential address
---Minutes of previous meeting
---Working Report
---Audited Accounts
---Organisational matters
---Any other items with permission of chair
---Vote of thanks
---National Anthem
(s/d) CIRCLE SECRETARY
-------------------------------------------------------------------------------------------------------------------
10-12-2016: **-----------------------NOTICE----------------------**
It is proposed to hold the pension adalat in respect of Telecom/
BSNL Pensioners/Family pensioners residing in / drawing pension from
Post Offices/Banks and retired from the SSAs jurisdiction of the following
three SSAs to be held on 31/01/2017 at BSNL Conference Hall, O/o the Pr. General Manager,
Telecommunication,Balan K. Nair Road, Kozhicode at 2:30 PM.
1. Kozhicode
2. Kannur
3. Malapuram
Applications from the pensioners regarding their grievances in the prescribed format
to be dealt in the said Adalat, will be received in this office till 30/12/2016.
It is requested that adequate publicity regarding the Pension Adalat may please
be arranged to be given amongst all pensioners.
The Pensioners may also send their grievances to Shri. Nahas Ali, Asst. Controller of Communication,
Accounts(Pension). email-d: dyccaadmintvm@nic.in, (Mob:7907675949),who is the Pension Adalat Officer of this office.
(s/d) CIRCLE SECRETARY
-------------------------------------------------------------------------------------------------------------------
05-09-2016: **-----------------------NOTICE----------------------**
DOT-BSNL Pensioner's Association Kerala Circle excecutive meeting on 22-09-2016
Click here for more details
-------------------------------------------------------------------------------------------------------------------
12-08-2016: **-----------------------NOTICE----------------------**
It is proposed to hold the pension adalat in respect of Telecom/
BSNL Pensioners/Family pensioners residing in / drawing pension from
Post Offices/Banks and retired from the SSAs jurisdiction of the following
four SSAs to be held on 20/10/2016 at BSNL Conference Hall, O/o the General Manager,
Telecommunication, Thiruvalla at 2:30 PM.
1. Thiruvananthapuram
2. Kollam
3. Alappuzha
4. Pathanamthitta
Applications from the pensioners regarding their grievances in the prescribed format
to be dealt in the said Adalat, will be received in this office till 19/09/2016.
It is requested that adequate publicity regarding the Pension Adalat may please
be arranged to be given amongst all pensioners.
The Pensioners may also send their grievances to Shri. A.Malaichamy, Dy. CCA, (Pension),
email-d: dyccapensiontvm@nic.in, (Mob:8281554887),who is the Pension Adalat Officer of this office.
(s/d) CIRCLE SECRETARY
-------------------------------------------------------------------------------------------------------------------
18-7-2016 : 78.2% DA Pension-Rivision Order Issued.
Click Here for the orders
-------------------------------------------------------------------------------------------------------------------
06-07-16: IDA Rate from 2016 July Click Here for details
-------------------------------------------------------------------------------------------------------------------
05-07-2016 : FLASH NEWS :- Cabinet approves Revision of pension 78.2%.
The pension of BSNL pensioners/family pensioners, who retired prior to 10.06.2013
has been revised w.e.f. 01.01.2007 notionally with actual benefit w.e.f. 10.06.2013,
by allowing the benefit of merger of 50% DA/DR with Basic Pay/ Pension,
effectively amounting to 78.2% DA/DR for the purpose of fitment at par with the serving
employees of BSNL. However, increase in the amount of DCRG, leave encashment and
commutation of pension in respect of these pensioners shall not be increased on this account.

The pension liability in respect of employees of Department of Telecommunications (DOT) /
Department of Telecom Services (DTS) / Department of Telecom Operations (DTO)
who retired prior to 01.10.2000 is solely borne by Government of India and the BSNL
will have no liability in respect of these employees. In respect of employees who are
absorbed in BSNL, the liability on account of pensionary benefits shall be fully borne by Government
while BSNL will continue to discharge pension liability by way of pension contribution in accordance
with FR-116 for the period they so work/worked.

The revision entails an estimated recurring annual expenditure of approximately Rs 129.63 crore for
pensioners and Rs 24.93 crore for family pensioners and arrears from 2013-14 would be
Rs 239.92 crore approximately for pensioners and Rs 44.62 Crore approximately for family pensioners.
Approximately118500 pensioners all over India will be benefitted by this revision.

This revision will fulfill the long pending demand of revision of pension of BSNL absorbed employees
who retired prior to 10.06.2013 and will bring the pensioners at par with the serving employees of
BSNL by removing the anomalies. It will help in reducing the financial burden of BSNL and removing
prospects of industrial unrest in BSNL while fulfilling the commitment of Government.
--------------------------------------------------------------------------------------------------------------------
22-06-2016: Shri. KG Devadas, former Joint Secretary and founder member
of our association passed away on 22/6/2016.
We express our heart-felt condolence to the bereaved family
----------------------------------------------------------------------------
18-06-2016:The 9th circle conference of DOT-BSNL PENSIONER's at Kollam concluded.
The excellent arrangement made by Kollam SSA is appreciated.
The circle president hoisted association flag and he also inaugurated the conference.
Circle secretary presented the minutes of last CC and the report for the period of 2015-16.
The circle treasurer presented the audited accounts. Novelists Sri.G. Venugopal,
Sri. K Prabhakaran Nair and Srimathi. Nirmala were honoured at the conference.
A grand feast was arranged by the host branch.
-----------------------------------------------------------------------------
27-05-2016: **-----------------------NOTICE----------------------**
It is proposed to hold the pension adalat in respect of Telecom/
BSNL Pensioners/Family pensioners residing in / drawing pension from
Post Offices/Banks and retired from the SSAs jurisdiction of the following
four SSAs to be held on 18/07/2016 at BSNL Conference Hall, O/o thr Pr. General Manager,
Telecommunication BSNL Bhavan, Ernakulam at 2:30 PM.
1. Ernakulam
2. Thrissur
3. Palakkad
4. Kottayam
Applications from the pensioners regarding their grievances in the prescribed format
to be dealt in the said Adalat, will be received in this office till 24/06/2016.
It is requested that adequate publicity regarding the Pension Adalat may please
be arranged to be given amongst all pensioners.
The Pensioners may send their grievances to Shri. P.C.Damodharan, Dy. CCA, (Pension),
email-d dyccapensiontvm@nic.in, (Mob:9447708400),who is the Pension Adalat Officer of this office.
(s/d) CIRCLE SECRETARY
20-05-2016: **-----------------------NOTICE----------------------**
--------------The 9th circle conference of DOT-BSNL PENSIONER"S---------------------
ASSOCIATION Kerala circle will be held at" SOPANAM AUDITORIUM(saraswathy Hall) ",
Near Railway Station, Kollam, ON 16-06-2016 Thursday at 9.30am
to transact the below given agenda.All SSA/ Branches are
requested to elect deligates and send the list to Circle Secretary and
Kollam SSA Secretary at the earliest, latest by 10-06-2016
and make the conference a grand success.
For and on behalf of Circle executive committee,
G.N.HARIHARAN NAIR
Circle Secratary,DOT-BSNLPA,Kerala Circle.
Agenda
-------------
---------> 9.30am---> Delegate Registration
--------------------> Flag hoisting
--------------------> DELEGATE SESSION
--------------------> Prayer
--------------------> Homage to departed members
--------------------> Welcome
--------------------> Presidential address
--------------------> Minutes of 8th circle conference
--------------------> Report 2015-16
--------------------> Audited Accounts 2015-16
--------------------> Organisational matters
--------------------> Any other items with permission of chair
--------------------> Vote of thanks
--------------------> National Anthem
-----------------------------------------------------------------------------------------------
15-04-2016: **-----------------------NOTICE----------------------**
THE PRE- CIRCLE CONFERRENCE CEC WILL BE HELD
0N 06-5-2016 at SOPANAM AUDITORIUM, KOLLAM AT 10 AM
ALL CEC MEMBERS ARE REQUESTED TO ATTEND THE MEETNG IN TIME
G.N.HARIHARANNAIR, Circle secratary,DOT-BSNLPA,KERALA
Agenda:-
PRAYER
HOMAGE TO DEPARTED MEMBERS
WELCOME
LAST COMMITTE MINUTES
ANNUAL REPORT 2015-2016
AUDITED ACCOUTS -DO-
9th Circle Conference at Ernakulam
ORGANISATIONAL MATTERS
ANY OTHER ITEMS WITH THE PERMISSION OF THE CHAIR
VOTE OF THANKS
-----------------------------------------------------------------------------------------------
13.04.2016: CABINET NOTE FOR 78.2% DA Merger REVISION OF PENSION OF THE BSNL PENSIONERS
RETIRED BEFORE 10.06.2013:
while reporting the status of the issue, it will have the much needed approval of MOC&IT.
The file containing the final Cabinet Note proposing
the revision of pension/family pension of pre-2007 and post 2007 BSNL pensioners
was cleared by MOC & IT. The Cabinet Note to the Cabinet Secretariat for
including this in the agenda item for discussion and decision is expected early.
-----------------------------------------------------------------------------------------------
31.03.2016: NO INCREASE IN IDA W.E.F. 1.4.2016: According to calculations
based on All India Consumer Price Index for Industrial Workers,
there will be no increase in IDA w.e.f. 1.4.2016 for both the CPSEs
where last pay revision was implemented w.e.f. 1.1.2007 and
where last pay revision was implemented w.e.f. 1.1.1997.
-----------------------------------------------------------------------------------------------
01-03-2016:-Pension adalath in respect of BSNL PENSIONERS will be held on 25-04-2016
at the conferrence hall of PGMT OFFICE ,Kozhicode.BSNL pensioners drawing
pension from post office/bank of Kozhicode, Kannur, Malapuram, Palakkad
may send their grievens on or before 25-03-2016,to the joint cca o/o the CCA,
CGMT OFFICE ,PMG ,THIRUVANANTHAPURAM 33
-----------------------------------------------------------------------------------------------
01-12-2015:-------------------- NOTICE ------------------
The circle exicutive meeting of DOT -BSNL PENSIONERS'ASSOCIATION KERALA.
willbe held at SREERAGAM ,Aditorium,THIRUNAKKARA,KOTTAYAM27(near tele XGE,)
on 22-12-2015 at 10AM .All CEC members are requested to attend the meeting in time.
--- G.N.HariHaran nair
--- Thiruvananthapuram Circle Secratary.
Agenda
---------
Prayer
Welcome
Presidential address
Minutes of the last cec
Organisational matters
Any other items with the permission of the chair
-----------------------------------------------------------------------------------------------
01-12-2015:-Pension adalath in respect of BSNL PENSIONERS will be held on 18 - 01-2015
at the conferrence hall of PGMT OFFICE ,KOLLAM.BSNL pensioners drawing
pension from post office/bank of kollam.,thiruvananthapuram,pathanamthitta,
may send their grievens on or before 18-12-2015,to the joint cca o/o the CCA,
CGMT OFFICE ,PMG ,THIRUVANANTHAPURAM 33
-----------------------------------------------------------------------------------------------
31.10.2015:SUBMISSION OF LIFE CERTIFICATE:
All pensioners will be required to submit their Life Certificate before 30th November 2015.
Life Certificate can be submitted in newly introduced Aadhar based digital Life Certificate system
or old system of filling up a prescribed form. Pensioners may contact their concerned
pension disbursing banks/Post Offices as the case may be.
-----------------------------------------------------------------------------------------------
28.10.2015:BSNL REFERS TO ITS OLD ORDER AND ADVISES ALL CGMs
TO SETTLE THE INDOOR EXPENDITURE CLAIMS OF THE RETIRED
EMPLOYEES WITHIN ONE MONTH:
BSNL Corporate Office, vide its No. BSNL/Admn.I/30-6/15 dated 23.10.2015 has drawn the attention of
all its Chief General Managers to its earlier instructions issued vide No. BSNL(Admn.I/1(Pt)
dated 23.08.2006 and has advised them to settle the indoor expenditure claims of the retired
employees within one month.It may be recalled that we had last taken up the issue of abnormal delay
in settlement of both indoor and outdoor reimbursement claims of the BSNL
pensioners with Director (HR) on 21.10.2015. Click Here to view the Order
-----------------------------------------------------------------------------------------------
20.10.2015:FINAL CABINET NOTE ON EXTENSION OF FITMENT BENEFIT
OF MERGER OF 78.2% IDA TO THE ABSORBED BSNL PENSIONERS:
It was earlier reported that after due scrutiny of the draft cabinet note sent by DOT,
Department of Expenditure raised some queries. Thereafter, Establishment Branch of DOT
had re-submitted the file and the Internal Finance Unit of DOT, on their own, collected
certain information which are required for the purpose from all the CCAs.
The Establishment Branch, after doing the needful, had again re-submitted the case.
The issue is reported to be getting sorted out. It is understood that the file had been
sent from DOT(F) to member(services).
-----------------------------------------------------------------------------------------------
09.10.2015:REVISION OF IDA W.E.F. 1.10.2015:
DPE has issued orders revising IDA w.e.f 1.10.2015 from 102.6% to 107.9% for CPSEs
where last pay revision was implemented w.e.f. 1.1.2007. Click Here for the orders
-----------------------------------------------------------------------------------------------
09.10.2015:REVISION OF IDA W.E.F. 1.10.2015:
DPE has issued orders revising IDA w.e.f 1.10.2015 from 242.1% to 251% for CPSEs
where last pay revision was implemented w.e.f. 1.1.1997. Click Here for the orders
-----------------------------------------------------------------------------------------------
20.08.2015:-It is proposed to hold the Circle Exicutive committe meeting of
DOT- BSNL Pensioners' Asociation Kerala circle on 8th September 2015
at ADIYODI BHAVAN ( near press club,central stadium,behind secratariate
Thiruvananthapuram at 10am to transact the below given agenda.All circle
exicutive committe members are requested to attend the meeting in time
(s/d)
G.N.Hariharan nair, Circle secratary DOT-BA\SNL PA,KERALA
Thiruvananthapuram
Agenda
--------------
1.PRAYER
2.Welcome
3.Presidential Adress
4.Minutes of last meeting
5.Report
6.Organaisatinal matters,
7. any other items with the permission of the chair
-----------------------------------------------------------------------------------------------
16.08.2015:- The pension adalat in respect of Telecom/BSNL Pensioners/family pensioners
residing in/drawing pension from post offices/banks and retired from the SSA
jurisdiction of Ernakulam,Kottayam and Alappuzha will be held on 18-09-2015 at the
Conferrence hall,O/o the Principal General Manager Telecom ,BSNL Ernakulam at 2.30pm
-----------------------------------------------------------------------------------------------
07.07.2015:- REVISION OF IDA W.E.F. 1.7.2015: DPE has issued orders
revising IDA w.e.f 1.7.2015 from 100.5% to 102.6% for CPSEs
where last pay revision was implemented w.e.f. 1.1.2007.
Click Here for the orders
-----------------------------------------------------------------------------------------------
07.07.2015:- REVISION OF IDA W.E.F. 1.7.2015: DPE has issued orders
revising IDA w.e.f 1.7.2015 from 238.5% to 242.1% for CPSEs
where last pay revision was implemented w.e.f. 1.1.1997.
Click Here for the orders
-----------------------------------------------------------------------------------------------
25.6.15:- 78.2 DA MERGER
It is understood from reliable source that
the cabinet note(draft) has been sent
to all the four Nodal ministries simultaneously by hand
-----------------------------------------------------------------------------------------------
04-06-2015:The 8th c/c of DOT-BSNL PENSIONERS ASOCIATION Concluded
at thrissur on 28-05-2015 elected the following office bearers for the next term
PRESIDENT:----------------------Sri K.SREEKANTAN NAIER
VICE PRESIDENTS:------------1.Sri.P.G.UNNITHAN (Kottarakara)
----------------------------2.Sri.P.R.C.NAIR (Thiruvalla)
----------------------------3.Sri.M.P.YOYAK
CIRCLE SECRATARY:-----------Sri.G.N.HARIHARAN NAIR.
ASSISTANT CIRCLE SECRATARY--Sri M.P.GEORGE
JOINT SECRATARIES:- --
----------------------------1..Sri.P.S.ANANDAMOHAN-( Mavelikara)
----------------------------2.Sri.N.K.PUSHPANGADAN .(Thrissur)
----------------------------3.Sri.K.GOPINATHAPILLA (Alappuzha)
ORGANISING SECRATARIES:-
----------------------------1.Sri.K.G.KRISHNSKUMAR (Kollam)
----------------------------2.Sri.J.J.SARMA.(Thrissur)
----------------------------3.Sri.JOSE SEBASTIAN(Kottayam)
----------------------------4.Smt.K.M.MARY(Moovattupuzha)
TREAURER--------------------Sri.kK.REGHUNATHAN NAIR
AUDITOR---------------------Sri.P.VIJAYANNAIR .
-----------------------------------------------------------------------------------------------
15-05-2015: THE PENSION ADADALAT in respect of Telecom/BSNL Pensioners/
Family pensioners drawing pension from post offices/banks and retired from
the SSA jurisdiction of Kannur,Thrissur,Malappuram,Palakkad and Kozhikode
will be held on 26/06/2015 at the conferrence Hall O/O The General Manager
Telecom BSNL Kannur at 2.30 pm
.Publicity may be given among members
-----------------------------------------------------------------------------------------------
10-05-2015: **-----------------------NOTICE----------------------**
The 8th circle conference of DOT-BSNL PENSIONER"S
ASSOCIATION Kerala circle will be held at" PANDY SAMOOHA MATOM
HALL, Pazhaya nadakave, THRISSUR, ON 28-05-2015 Thurs day at 9.30am
to transact the below given agenda.All SSA/ Branches are
requested to send representatives and make the conference a grand success
For and on behalf of Circle executive committee,
G.N.HARIHARAN NAIR
Circle Secratary,DOT-BSNLPA,Kerala Circle.
Agenda
-------------
9.30am Delegate Registration
10.30 Flag hoisting
1100 Inauguration of the conference PGMT BSNL Thrissur
11.30 DELEGATE SESSION
Prayer
Homage to departed members
Welcome
Presidential address
Minutes of 7th circle conference
Report 2014-15
Audited Accounts 2014-15
Election of office bearers for the next term
Organisational matters
Any other items with permission of chair
Vote of thanks
National Anthem
-----------------------------------------------------------------------------------------------
07-04-2015: **-----------------------NOTICE----------------------**
THE PRE- CIRCLE CONFERRENCE CEC WILL BE HELD
0N 22-4-2015 IN :''BROTHERS HOTEL ALAPPUZHA AT 10 AM
ALL CEC MEMBERS ARE REQUESTED TO ATTEND THE MEETNG IN TIME
G.N.HARIHARANNAIR
Circle secratary,DOT-BSNLPA,KERALA
Agenda:-
PRAYER
HOMAGE TO DEPARTE4D MEMBERS
WELCOME
LAST COMMITTE MINUTES
ANNUAL REPORT 2014-2015
AUDITED ACCOUTS -DO-
ORGANISATIONAL MATTERS
ANY OTHER ITEMS WITH THE PERMISSION OF THE CHAIR
VOTE OF THANKS
-----------------------------------------------------------------------------------------------
07-04-2015: REVISION OF IDA W.E.F. 1.4.2015: DPE has issued orders
revising IDA w.e.f 1.4.2015 from 100.3% to 100.5% for CPSEs where last
pay revision was implemented w.e.f. 1.1.2007. Click Here for the orders
-----------------------------------------------------------------------------------------------
07-04-2015: REVISION OF IDA W.E.F. 1.4.2015: DPE has issued orders
revising IDA w.e.f 1.4.2015 from 238% to 238.5% for CPSEs where last
pay revision was implemented w.e.f. 1.1.1997. Click Here for the orders
-----------------------------------------------------------------------------------------------
08-02-2015: **-----------------------NOTICE----------------------**
The PensionAdalat in respect of Telecom/BSNL
Pensioners/Family pensioners residingin/drawing pension from post
offices/banks and retired from theSSA jurisdiction of
Trivandrum,Alappuzha and Kozhikode will be held on27/03/2015
at the Conference Hall,O/O the General Manager,Telecom,BSNL,Allappuzha at 2.30pm.
-----------------------------------------------------------------------------------------------
08.01.2015: REVISION OF IDA W.E.F. 1.1.2015: DPE has issued orders revising IDA
w.e.f 1.1.2015 from 98.1% to 100.3% for CPSEs where last pay revision was
implemented w.e.f. 1.1.2007. Click Here for the orders
-----------------------------------------------------------------------------------------------
08.01.2015: REVISION OF IDA W.E.F. 1.1.2015: DPE has issued orders revising IDA
w.e.f 1.1.2015 from 234.5% to 238% for CPSEs where last pay revision was implemented
w.e.f. 1.1.1997. Click Here for the orders
-----------------------------------------------------------------------------------------------
18-12-2014 : 78.2% CASE(Rivision)
It is understood that the Cabinet Note, finalised by the Directorate,
is being circulated amongst senior officers for their approval.
We are informed that the Note could be sent to the other Ministries
(Finance, Heavy Industries, Law and Pension) for their concurrence
before end of this month.
-----------------------------------------------------------------------------------------------
17-12-2014: **-----------------------NOTICE----------------------**
Thiruvananthapuram
It is proposed to hold the circle exicutive committe meting of
DOT-BSNL PENSIOR'S ASSOCIATIN ,KERALA CIRCLE at
HOTEL ELITE CONTINENTAL( near old KSERTC station) on 7-01-2015 at 10am,
to transact the agenda given below.All CEC Members are requested to attend
the meeting in time.
WITH BEST WISHS
G.N.HARIHARANNAIR
Circle secratary,DOT-BSNLPA,KERALA
Agenda:-
Prayer
Welcome
Presidential adress
Last committe minutes
Report of activities
Organisational matters
Next circle conferrence
Anyother items with the permission of chair
-----------------------------------------------------------------------------------------------
25.10.2014 : The Pension Adalat in respect of Telecom/BSNL Pensioners/ Family
pensioners residing in/drawing pension from post offices/banks and retired from
the SSAs jurisdiction of Kollam,Kottayam andPathanamthitta will be held on
19 th December2014 at the O/O the GMTD,BSNL Thiruvalla at 2'30 -pm
-----------------------------------------------------------------------------------------------
14.10.2014: REVISION OF IDA W.E.F. 1.10.2014: DPE has issued orders revising
IDA w.e.f 1.10.2014 from 223% to 234.5% for CPSEs where last pay revision was
implemented w.e.f. 1.1.1997. Click Here for the orders
-----------------------------------------------------------------------------------------------
14.10.2014: REVISION OF IDA W.E.F. 1.10.2014: DPE has issued orders revising
IDA w.e.f 1.10.2014 from 91.3% to 98.1% for CPSEs where last pay revision was
implemented w.e.f. 1.1.2007. Click Here for the orders
-----------------------------------------------------------------------------------------------
22-09-2014: The circle Exicutive commite meeting of DOT-BSNL PENSIONER'S
Associaton ,Kerala Circle will be held on 8th October 2014 at
WORKSHP-BHAVAN ,ELAMKULAM JUNCTION,S .A .ROAD ,ERNAKULAM(2KM from
south junction) at 10am. All CEC Members are requested
to attend the meeting in time
(s/d)G.N.Hariharan nair, CIRCLE SECRATARY
Thiruvananthapuram
-----------------------------------------------------------------------------------------------
22-09-2014: The pension adalat in respect of Telecom/BSNL Pensioners/Family
pensioners residing in/drawing pension from post offices/Baanks and retired from the SSA
jurisdiction of Thrissur ,Palakkad will be held on 10th October,2014 at the O/o
General Manager,Telecom,BSNL,T.B Road,Palakkad
-----------------------------------------------------------------------------------------------
07-07-2014: REVISION OF IDA W.E.F. 1.7.2014: DPE has issued orders revising
IDA w.e.f 1.7.2014 from 218.1% to 223% for CPSEs where last pay revision was
implemented w.e.f. 1.1.1997. Click Here for the orders
-----------------------------------------------------------------------------------------------
07-07-2014: REVISION OF IDA W.E.F. 1.7.2014: DPE has issued orders revising
IDA w.e.f 1.7.2014 from 88.4% to 91.3% for CPSEs where last pay revision was
implemented w.e.f. 1.1.2007. Click Here for the orders
-----------------------------------------------------------------------------------------------
06-07-2014: INCREASE IN IDA W.E.F. 1.7.2014: According to calculations
based on All India Consumer Price Index, IDA is to be increased w.e.f. 1.7.2014
by 2.9% for CPSEs where last pay revision was implemented w.e.f. 1.1.2007
and by 4.9% where last pay revision was implemented w.e.f. 1.1.1997.
-----------------------------------------------------------------------------------------------
18-06-201:- 7th circle conferrence concluded at RTTC Thiruvananthapuram
CGMT,Kerala inagurated the Open session.
Dr .Sasikumar of NIMS Hospital Neyyattinkara delivered a talk on DIABETICS.
-----------------------------------------------------------------------------------------------
Please click here for "DRAFT SUBMISSIONS BEFORE 7th PAY COMMISSION"
-----------------------------------------------------------------------------------------------
11.06.2014: 78.2% IDA BENEFIT
As we all know the Department of Expenditure had asked some queries about the case.
DOT Directorate delayed the reply to the queries due to some
difference of opinion amongst the top officers in DoT as to whether fresh Cabinet
approval is required or not to extend the benefit to pre-2007 pensioners.
The file was pending with Member(F). Now, it is understood that Member (Finance)
has cleared the file and the same isrouted through Member(Services)
to Additional Secretary.
(as agreed to our circle president Sri. CK Sreekandan Nair)
A final and definite view is not yet taken whether fresh Cabinet approval
is needed or not. There will be some more delay, it seems.
-----------------------------------------------------------------------------------------------
03.06.2014: 7TH CIRCLE CONFERRENCE NOTICE
----------------------------------------------------------------
The 7th circle conferrence of DOT-BSNL PENSIONERS' ASSOCIATION
Kerala circle will be held at RTTC ,Kaimanam,Thiruvananthapuram on 18-06-14
at 9am,to transact the following agenda.
All SSA/Branchs are requested to elect delegates,send the list of
delgate and send resulutions if any to circle secratart before 13-06-14.the
delegate fee is fixed as Rs200/delegate,also requested to attend in time

---- with best wishs,
----------------------------------------------------------------

03-05-14
Thiruvananthapuram
Circle secratary
Agenda
9AM Delgate Registration
9.30 delegate session
1100 Open session
1145 Health Talk
1215 Delegate session continues
1330 lunch
1430 Organisational matters
1630 Any other items with permissin of the chair
1700 Vote of thanks
-----------------------------------------------------------------------------------------------
30.05.2014: 78.2 DA Merger :- Our circle president took this matter with member finance
and agreed to send it with in a week favourably.
-----------------------------------------------------------------------------------------------
19.04.2014 The pension adalat will be held at R T T C THIRUVANATHAPURAM ON 24-04-14
The pre-circle conferrence CEC will be held at Kottayam HOTEL AIDA
ON 5-5-14 Monday at 0930.All CEC Mmembers are requested to attend the
meeting
--CIRCLE SECRATARY
-----------------------------------------------------------------------------------------------
28-01-2014: It is proposed to hold the pension adalat in respect of Telecom/
BSNL Pensioners/Family pensioners residing in / drawing pension from
Post Offices/Banks and retired from the Kerala Circle.
The Date, time and venue of Adalat will be intimated later on.
Application from the pensioners regarding their grievances in the prescribed format will be accepted.
FORM FOR RAISING GRIEVANCE
(s/d) CIRCLE SECRETARY
-----------------------------------------------------------------------------------------------
08.01.2014: REVISION OF IDA W.E.F. 1.1.2014:DPE has issued orders revising IDA w.e.f 1.1.2014
from 213.2% to 221.7% for CPSEs where last pay revision was implemented w.e.f. 1.1.1997
[Click here to view the order....]
-----------------------------------------------------------------------------------------------
08.01.2014: REVISION OF IDA W.E.F. 1.1.2014:DPE has issued orders revising IDA w.e.f 1.1.2014
from 85.5% to 90.5% for CPSEs where last pay revision was implemented w.e.f. 1.1.2007
[Click here to view the order....]
-----------------------------------------------------------------------------------------------
01-12.2013: CIRCLE EXICUTIVE MEETING OF DOT-BSNL PA KERALA
CIRCLE WILL BE HELD AT "Brothers Tourist Home", Alappuzha
ON 27-12-2013 AT 09:30AM. ALL CIRCLE EXICUTIVE
MEMBERS ARE REQUESTED TO ATTEND THE MEETING ON TIME
(s/d) CIRCLE SECRATARY DOT-BSNL PA KERALA CIRCLE
-----------------------------------------------------------------------------------------------
01-12-2013: The pension adalat in respect of Telecom/BSNL Pensioners/Family pensioners
residing in / drawing pension from Post Offices/Banks and retired from the SSA
jurisdiction of Calicut, Malapuram and Kannur SSAs at the Conference Hall,
O/o the Principal General Manager Telecommunications(BSNL), Balan K Nair Road,
Calicut-1 on 12-12-2013 at 2:30PM.
(s/d) CIRCLE SECRETARY
-----------------------------------------------------------------------------------------------
15.10.2013: REVISION OF IDA W.E.F. 1.10.2013:DPE has issued orders revising IDA
w.e.f 1.10.2013 from 202% to 213.2% for CPSEs where last pay revision was implemented
w.e.f. 1.1.1997
[Click here to view the order....]
-----------------------------------------------------------------------------------------------
15.10.2013: REVISION OF IDA W.E.F. 1.10.2013:DPE has issued orders revising IDA
w.e.f 1.10.2013 from 78.9% to 85.5% for CPSEs where last pay revision was implemented
w.e.f. 1.1.2007
[Click here to view the order....]
-----------------------------------------------------------------------------------------------
21.09.2013: CIRCLE EXICUTIVE meeting held at "NAZ AUDITORIUM",MOOVATTUPUZHA on 20-09-2013,
decided to send post-card campaign to Sri. Kapil Sibil, Hon. Minister for Communication and IT,
on 01-10-2013. Also decided to enhance the cost of Journal to Rs.10 per copy.
TEXT FOR SENDING POST-CARD as shown below:-
Hon. Minister,
Pay revision from 01-01-2007 with 78.2% DA merger denied to
BSNL pensioners, pray intervention.
To,
Sri Kapil Sibil, Hon. Minister for Communication and IT,
Sanchar Bhavan, New Delhi-1
-----------------------------------------------------------------------------------------------
05.09.2013: CIRCLE EXICUTIVE MEETING OF DOT-BSNL PA KERALA
CIRCLE WILL BE HELD AT "NAZ AUDITORIUM",MOOVATTUPUZHA
ON 20-09-2013 AT 10:30AM. ALL CIRCLE EXICUTIVE
MEMBERS ARE REQUESTED TO ATTEND THE MEETING ON TIME
(s/d) CIRCLE SECRATARY DOT-BSNL PA KERALA CIRCLE
--------------------------------------------------------------------------------------------------
12.07.2013: Pension adalath for Kottayam & Allepy SSA will be held
at Kottayam on 5/9/2013. Grievences should reach CCA on or before 2/8/2013.
FORM FOR RAISING GRIEVANCE
--------------------------------------------------------------------------------------------------
05.07.2013: REVISION OF IDA W.E.F. 1.7.2013:DPE has issued orders revising
IDA w.e.f 1.7.2013 from 195.2% to 202% for CPSEs where last pay revision
was implemented w.e.f. 1.1.1997
[Click here to view the order...]
--------------------------------------------------------------------------------------------------
05.07.2013: REVISION OF IDA W.E.F. 1.7.2013:DPE has issued orders revising
IDA w.e.f 1.7.2013 from 74.9% to 78.9% for CPSEs where last pay revision
was implemented w.e.f. 1.1.2007
[Click here to view BSNL order...]
--------------------------------------------------------------------------------------------------
28.06.2013: IDA INCREASE W.E.F. 1.7.2013:According to calculations based on
All India Consumer Price Index, IDA is to be increased w.e.f. 1.7.2013 by 4%
for CPSEs where last pay revision was implemented w.e.f. 1.1.2007 and by 6.8% where
last pay revision was implemented w.e.f. 1.1.1997.
--------------------------------------------------------------------------------------------------
12.06.2013: PENSIONERY BENEFITS TO THE PRE-2007 AND POST-2007 ABSORBED
BSNL PENSIONERS CONSEQUENT TO ISSUE OF ORDERS FOR MERGER OF 78.2% OF
IDA WITH BASIC PAY FOR FIXATION OF PAY IN REVISED IDA SCALE W.E.F.
01.01.2007:: Following DoT’s approval of BSNL’s proposal to allow merger of 78.2% of
IDA (instead 68.8% of IDA as allowed earlier) with basic pay to its employees with
effect from 01.01.2007 for the purpose of fixation of their pay in the revised IDA pay
scale, BSNL has subsequently issued the necessary Orders yesterday for
implementation of the decision. Deviating from June 2012 agreement between
unions/associations and the BSNL, both the Presidential Order of DOT issued on
10.06.2013 and the BSNL order issued on 11.06.2013 say that “No arrears will be paid”
implying that arrears for the period 01.01.2007 and 09.06.2013 which are otherwise
admissible on account of revision of pay with the new pay fixation formula will not be
paid even in future when the financial position of BSNL improves.
Now in regard to the case for payment of additional pensionery benefits to the post-
2007 absorbed BSNL pensioners is concerned, no separate order on the matter is
actually required. Since their pay will have to be re-fixed w.e.f. 01.01.2007, their last
pay drawn will automatically get changed. They will, therefore, be entitled to get
additional benefit on account of leave encashment on revised last pay drawn which is
to be paid by BSNL. The BSNL units will also have to process their cases for revision of
pension and payment of gratuity based on the revised last pay drawn and send the
documents to the CCA concerned for revision of pension, payment of enhanced
commutation of pension and gratuity. These will be paid by DoT. All those absorbed
BSNL pensioners, who retired after 01.01.2007 but before 10.06.2013, are now
requested first to get their pay revised w.e.f. 01.01.2007 in accordance with the BSNL
Order dated 11.06.2013.
As regards the case of the pre-2007 absorbed BSNL pensioners is concerned, DoT will
have to issue an order modifying the pension fixation formula as contained in its earlier
Order No. 40-17/2008-Pen(T)-Vol.III dated 15.03.2011 granting revision of
pension/family pension. Thereafter, papers for further revision of their individual
pension will move.
--------------------------------------------------------------------------------------------------
11.06.2013: BSNL issues orders on MERGER OF 78.2% IDA WITH BASIC PAY FOR PAY
FIXATION IN REVISED IDA PAY SCALE WITH EFFECT FROM 01.01.2007 TO THE BSNL
EMPLOIYEES:: BSNL has issued orders allowing the benefit of merger of 50% DA
effectively amounting to 78.2% for the purpose of fitment in revised IDA scales
w.e.f.1.1.2007 and payment with prospective effect only. No arrears will be paid.
Click here to view BSNL order[....]
--------------------------------------------------------------------------------------------------
10.06.2013: DOT APPROVES MERGER OF 78.2% IDA WITH BASIC PAY FOR PAY
FIXATION IN REVISED IDA PAY SCALE WITH EFFECT FROM 01.01.2007 TO THE BSNL
EMPLOIYEES:: DoT has today conveyed its approval for BSNL proposal to allow the
benefit of merger of 50% DA effectively amounting to 78.2% for the purpose of
fitment in revised IDA scales w.e.f.1.1.2007 and payment with prospective effect only.
BSNL will now issue detailed orders in this regard.
Click here to view DoT letter[....]
--------------------------------------------------------------------------------------------------
08.06.2013: MERGER OF 78.2% IDA WITH BASIC PAY FOR PAY FIXATION IN REVISED
IDA PAY SCALE WITH EFFECT FROM 01.01.2007 TO THE BSNL EMPLOIYEES::
Department of Telecommunication is stated to have given the much awaited nod on the
BSNL’s proposal for allowing merger of 78.2% of IDA (in place 68.8% of IDA allowed
earlier) with basic pay for pay fixation in the revised IDA pay scales w.e.f. 01.01.2007
to the BSNL employees without payment of any arrears to be accrued between
01.01.2007 and the date of issue of the Order on the subject and also continuation of
payment of allowances and perks on the basic pay fixed with 68.8% of IDA till the
financial position of BSNL improves. As regards the revision of pension of pre-2007 and
post-2007 pensioners is concerned, Department of Telecommunication had earlier
announced in an important forum of the Government of India (which is recorded) that
“… if in any stage the benefit of merger of 78.2% IDA with pay of serving employees is
given, this benefit would also be extended to absorbed pensioners of BSNL” (Please
refer to the posting dated 06.03.2013 in this website). Otherwise also, revision of
pension cannot be denied once the basic pay is revised with new formula. Anyhow, the
Order on the above stated subject is still awaited. We can, therefore, comment further
only on receipt of the same.
--------------------------------------------------------------------------------------------------
07.06.2013: ISSUE OF PHOTO IDENTITY CARD TO THE BSNL PENSIONERS::
Department of Pension & Pensioners' Welfare, vide its No. 41/21/2000-P&PW(D)
dated 30.4.2013, had issued Orders for issue of Identity Cards to the Central
Government Pensioners in terms of its earlier Order No. 41/21/2000-P&PW(D) dated
16.11.2000. Now BSNL Corporate Office has also issued Orders in the same lines, vide
its No. 40-35/2011-Pen(B) dated 13.05.2013, for issue of Identity Cards to the BSNL
pensioners who wish to have the same against payment for lamination cost and the
photographs. Format for the Identity Card is the same as prescribed by DOP&PW for
the Identity Cards of Central Government Pensioners. BSNL has also been earlier
issuing the Identity Cards to the BSNL pensioners and was following the Government
Orders on the subject.
CLICK HERE TO VIEW THE ORDER
--------------------------------------------------------------------------------------------------
06.06.2013: THE 6TH CIRCLE C0NFERRENCE HELD AT KOLLAM SOPANAM AUDITORIUM
ON 01-06-2013ELECTED THE FOLLOWING OFFICE BEARES FOR THE NEXT TERM(2013-15)
THE CONFERRENCE ALSO DECIDED TO RAISE THE MONTHLY SUBSCRIPTION TO 20/-RUPEES
CIRCLE PRESIDENT:
SRI.K.SREEKANTAN NAIR
CIRCLE VICE-PRESIDENTS:
1.SRI.P.G.UNNITHAN 2.SRI.A.R DHARMISHTAN 3.SMT.LATHIKAMMA
CIRCLE SECRATARY : SRI.G.N.HARIHARAN NAIR
ASSISTANT CIRCLE SECRATARY : SRI.M.P.GEORGE
JOINT SECRATARIES : 1. SRI.P.S.ANANDAMOHAN 2.SRI K .G.DEVADAS 3.SRI.P.K.S.MENON
ORGANAISING SECRATARIES
1.SRI.J.J SARMA 2 SRI. .KRISHNAKUMAR 3.SRI JOSESEBASTIAN 4.SMT.K.M.MARY
TREAURER: SEI.REGHUNATHAN NAIR
AUDITOR: SRI.P, H.KHALITH
29.04.2013 It is proposed to hold the pension-adalat in respect of
Telecom/BSNL pensioners /Family pensioners residing in/drawing pension
from Post offices/Banks and retired from the SSA jurisdiction of the following three
SSAs at Thiruvananthapuram on 06-06-2013 at REGIONAL TELECOM TRAINING
CENTRE,Kaimanam,Thiruvananthapuram-40 at 2.30PM
1.Thiruvananthapram,2.Kollam,3.Pathanamthitta
Application from the pensioners regarding their grievances in
the prescribed format will be received at DOT OFFICE up to 5.30 pm
on 10-05-2013.The grievancesmay be send to Joint CCA,
----------------------------------------------------------------------------------------------
15.04.2013 THE PRE- CIRCLE CONFERRENCE CIRCLE EXICUTIVE MEETING WILL BE
HELD AT" PANDY SAMOOHAM, HALL PAZHAYA NADAKAVE,THRISSUR "ON
08-05-2013 AT 10AM.ALL CEC MEMBERS ARE REQUESTED TO ATTEND THE
MEETING IN TIME.Resolusions,bye-law amendmends if any,
should reach circle secretary on or before 5-5-2013.
(s/d circle secretary),Thiruvananthapuram
----------------------------------------------------------------------------------------------
15.04.2013: REVISION OF IDA W.E.F. 1.4.2013:DPE has issued orders revising
IDA w.e.f 1.4.2013 from 189.5% to 195.2% for CPSEs where last pay revision
was implemented w.e.f. 1.1.1997.
CLICK HERE TO VIEW THE ORDER
----------------------------------------------------------------------------------------------
15.04.2013 REVISION OF IDA W.E.F. 1.4.2013:DPE has issued orders revising
IDA w.e.f 1.4.2013 from 71.5% to 74.9% for CPSEs where last pay revision
was implemented w.e.f. 1.1.2007.
CLICK HERE TO VIEW THE ORDER
----------------------------------------------------------------------------------------------
15.02.2013 The pension adalat scheduled for 22.02.2013 is postponed
to 01.03.2013 at 2PM and the venue also changed to E10B Exchange, Chenbukave,Thrissur.
----------------------------------------------------------------------------------------------
10.01.2013: REVISION OF IDA W.E.F. 1.1.2013:DPE has issued orders revising IDA
w.e.f 1.1.2013 from 182.5% to 189.5% for CPSEs where last pay revision was
implemented w.e.f. 1.1.1997.
READ MORE.....
-----------------------------------------------------------------------------------------------
09.01.2013: REVISION OF IDA W.E.F. 1.1.2013:DPE has issued orders revising IDA
w.e.f 1.1.2013 from 67.3% to 71.5% for CPSEs where last pay revision was
implemented w.e.f. 1.1.2007.
READ MORE.....
----------------------------------------------------------------------------------------------
31.12.2012: IDA INCREASE W.E.F. 1.1.2013:According to calculations based on
All India Consumer Price Index, IDA is to be increased w.e.f. 1.1.2013 by 4.2%
for CPSEs where last pay revision was implemented w.e.f. 1.1.2007 and by 7%
where last pay revision was implemented w.e.f. 1.1.1997.
-----------------------------------------------------------------------------------------------
24.12.2012 It is proposed to hold the Pension Adalat in respect of telecom/ BSNL
Pensioners/Family Pensioners residing in/drawing pension from Post Offices/Banks
and retired from the SSA Jurisdiction of the following three SSAs at Trichur on
22-02-2013 at the conference hall,O/o the PGMT,BSNL,Trichur at 2:00PM
(1) Palakkad (2) Trichur (3) Ernakulam
Applications from the pensioners regarding their grievances in the prescribed
format will be received at this office till cease work on 16-01-2013.It is requested
that adequate publicity regarding the Pension Adalat may be given amongest all pensioners.
Grieveances may please be sent to Shri P.Karmachandran,Jt.Controller(Pension Adalat Officer),
O/o the CCA,DOT,Kerala Circle
Phone (O)-0471-2302351
Fax 0471-2302357
Email-jtccakerala@yahoo.com
READ MORE.....
-----------------------------------------------------------------------------------------------
06.11.2012: CIRCLE EXICUTIVE MEETING OF DOT-BSNL PA KERALA
CIRCLE WILL BE HELD AT "SIKSHAK BHAVAN ",ERNAKULAM
ON 22-11-2012 AT 10AM. ALL CIRCLE EXICUTIVE
MEMBERS ARE REQUESTED TO ATTEND THE MEETING IN TIME
(s/d) CIRCLE SECRATARY DOT-BSNL PA KERALA CIRCLE
-----------------------------------------------------------------------------------------------
28.09.2012: IDA INCREASE W.E.F. 1.10.2012:According to calculations
based on All India Consumer Price Index, IDA is to be
increased by 5.8% for CPSEs where last pay revision
was implemented w.e.f. 1.1.2007 and by 9.9% where
last pay revision was implemented w.e.f. 1.1.1997.
-----------------------------------------------------------------------------------------------
******************* NOTICE ********************
01.08.2012 THIRUVANANTHAPURAM
THE CIRCLE EXICUTIVE COMMITE MEETING WILL BE HELD
AT "HOTEL POORNA" SOUTH OF SECRATERIATE,STATUE, TVPM
ON 14-08-2012 AT 09:30 HRS.ALL CIRCLE EXICUTIVE
COMMITTE MEMBERS ARE REQUESTE4D TO ATTEND
THE MEETING ON TIME.
(s/d)CIRCLE SECRATARY, DOT-BSNL PA KERALA CIRCLE
-----------------------------------------------------------------------------------------------
30.06.2012: IDA INCREASE W.E.F. 1.7.2012:According to calculations
based on All India Consumer Price Index, IDA is to be
increased by 4.8% for CPSEs where last pay revision was
implemented w.e.f. 1.1.2007 and by 8.1% where last pay revision
was implemented w.e.f. 1.1.1997.
-------------------------------------------------------------------------------------------------
28.06.2012: BSNL ORDERS PROVISION OF 60% DISCOUNT ON ,br>BROAD BAND CONNECTION AT THE RESIDENCE
OF THE BELOW JAG LEVEL RETIRED EMPLOYEES RESIDING
IN BSNL AREA AS APPLICABLE TO THE SERVING BELOW
JAG LEVEL EMPLOYEES – OUR CONSTANT PLEADING
WITH MANAGEMENT BRINGS RESULT
Click here to view order......
-------------------------------------------------------------------------------------------------
16.06.2012 Pension adalath in respect of DOT/BSNL pensioners/faimily
pensioners of Thrissur, Palakkad and Ernakulam willbe held
at the conference hall of O/O the PGMT,BSNL Bhavan ERNAKULAM
at 3pm on 24-07-2012. Application from the pensioners
may be sent to dot cell on or before 2-7-12
-------------------------------------------------------------------------------------------------
06.06.2012 : TVPM SSA NEWS
General Body meeting of DOT-BSNL Association Thiruvananthapuram
SSA will be held at Rajadhani Auditorium ,East Fort,
Thiruvananthapuram on 20-06-2012 at 10am.
All members are requested to attend the meeting in time
and make it a grand success;
It is also requested to give names for attending the circle
conferrence which is going to be held at THIRUVALLA ON 12-06-12'.
The names may be given to the District Secretary on or before 9-06-12
so as to make reservation and other arrangements
-------------------------------------------------------------------------------------------------
20.05.2012 : The fifth circle conferrence of DOT-BSNL PA KERALA
will be held at HOTEL ELLITE INTERNATIONAL THIRUVALLA
ON 12-6-2012 at 10am.All SSAs/branches are requested
attend the conferrence in time and make it a grand success.
List of delegate may reach the circle secratary on or before 6-6-12.
Resolutions. Questions may reach the c/s 0n orbefore 6-6-12.
The pre-circle conferrence CEC will be held at BROTHERS RESTAURANT,
near old medical college, ALAPPUZHA on 7-6-12 at 10AM.
All CEC members are requested to attend the CEC in time
(s/d) Circle secratary
-------------------------------------------------------------------------------------------------
02.04.2012: REVISION OF IDA RATE W.E.F. 1.4.2012: As per the figures for All India Consumer
Price Index for Industrial Workers available, there will be no increase in IDA rates
w.e.f. 1.4.2012 either for CPSEs where last pay revision was implemented on 1.1.2007
or the CPSEs where pay revision was last implemented on 1.1.1997.
-------------------------------------------------------------------------------------------------
09.03.2012: Circle executive committee meeting on 20-03-2012 at Hotel Central Park,
Prathibha Junction, Kadapakkada, Kollam at 10am. All CEC members are requested
to attend the meeting on time.
- thanks Circle Secretery.
-------------------------------------------------------------------------------------------------
16.01.2012: REVISION OF IDA RATES W.E.F. 1.1.2012:DPE has issued orders for revision of IDA rates
from 52% to 56.7% w.e.f 1.1.2012 for PSUs where last pay revision was implemented w.e.f. 1.1.2007.
READ MORE.....
-------------------------------------------------------------------------------------------------
27.12.2011: CLAIM FOR INCOME TAX RELIEF UNDER SECTION 89(1) OF IT ACT:Following revision of
pension and receipt of arrears from January 2007, many absorbed pre-2007 BSNL Pensioners
will have to pay higher amount as Income Tax if the arrears for the past years are also
added in the current year’s income and the tax to be paid is calculated accordingly.
However, under Section 89(1) of Income Tax Act some relief can be claimed.
The position will differ from individual to individual and this has to be worked out
for each individual. Further, some may not find it beneficial. We have made the task easier
for those who are willing to take this benefit. A simple Write Up has been
prepared explaining the steps to be taken to calculate the relief that one
may get.
Please read the Write Up and work out the details....
FORM 10E
TAX SLAB
-------------------------------------------------------------------------------------------------
30.12.2011: IDA INCREASE W.E.F. 1.1.2012:According to calculations based on
All India Consumer Price Index, IDA is to be increased by 4.7% for CPSEs
where last pay revision was implemented w.e.f. 1.1.2007 and by 8% where
last pay revision was implemented w.e.f. 1.1.1997.
-------------------------------------------------------------------------------------------------
25.11.2011 PENSION ADALAT 2011 held. C/s attended.
--------------------------------------------------------------------------------------------------------------------------------------
19.11.2011
Letter sent to GENERAL MANAGER, SBT, Trivandrum regarding delay in payment of PR
--------------------------------------------------------------------------------------------------------------------------------------
04.11.2011 It is intimated that PENSION ADALAT 2011 in respect of DoT/BSNL Pensioners
drawing pension in Kerala Telecom Circle will be held in RTTC, Trivandrum
by CCAKerala Circle on 25/11/2011 from 3PM onwards.
READ MORE.....
FORM FOR RAISING GRIEVANCE
Any complaints/queries regarding the Adalat shall be reported to C/S by 14th Nov
----------------------------------------------------------------------------------------------------------------------------------------------
03.11.2011 CIRCLE EXICUTIVE COMMITTE MEETING AT NAS AUDITORIUM MOOVATTUPUZHA
ON 14/11/11.ALL CEC MEMBERS ARE REQUESTED TO ATTEND THE MEETING AT 10.30
-CIRCLE SECRATARY
----------------------------------------------------------------------------------------------------------------------------------------------
30.10.2011 As per information gathered from dotcell as on 28/10/11,
total 2568 cases were despatched.
2004,2005,2006 cases are in progress. Cases up to 2004 which were not
received so for may be reported to C/S for checking
----------------------------------------------------------------------------------------------------------------------------------------------
21.10.2011: REVISION OF IDA RATES W.E.F. 1.10.2011 IN RESPECT OF CPSEs WHERE LAST PAY
REVISION WAS GIVEN EFFECT TO W.E.F. 1.1.2007: DPE has issued orders revising IDA rates
from 47.2% to 52% w.e.f. 1.10.2011 in respect of CPSEs where last pay revision was
given effect to w.e.f. 1.1.2007 and BSNL has endorsed the DPE orders.
In respect of CPSEs where last pay revision was effective from 1.1.1997,
orders are expected to be issued shortly.
----------------------------------------------------------------------------------------------------------------------------------------------
21.10.2011: CHECK LIST FOR MEDICAL CLAIMS & RE-VALIDATION OF BSNL MRS CARDS:
BSNL Corporate Office (L &A section) has issued Orders regarding the check
list to be attached with every medical claims and annual Re-validation of BSNL MRS Cards.
----------------------------------------------------------------------------------------------------------------------------------------------
14/10/11 VISITED DOT CELL REVISION OF 2004,2005 IN PROGRESS ,CASES OF
2000.01.03,04,NOT RECEIVED MAY BE REPORTED TO C/S FOR
TAKING UP WITH DETAILS CASES MAY BE FORWARDED THROUGH B/Ss,D/Ss
----------------------------------------------------------------------------------------------------------------------------------------------
01.10.2011: IDA increase w.e.f.1.10.2011: According to calculations based
on All India Consumer Price Index, IDA is to be increased by 4.8% for
CPSEs where last pay revision was implemented w.e.f. 1.1.2007
and by 8% where last pay revision was implemented w.e.f. 1.1.1997.
----------------------------------------------------------------------------------------------------------------------------------------------
30.09.11 visited DOTCELL. They started 2003 cases, D/Ss are requested to
ensure 2001 and 2002 cases are not left out, if any may be brought to C/S
for pursuing with DOTCELL
23.9.11 went DOTCELL,met CAO discussed about the pension revision and
post 2007 pending cases. He told that they are giving preference
to pre-2007 cases. and after that they will settle other cases.
----------------------------------------------------------------------------------------------------------------------------------------------
13.9.11 met joint cca. Two more cao reported, revision work in progress
30.8.11.met joint cca.discussed about penssion revision,he told two more caos;
AOS are joining first week of september and also assured the rivision will be
completed by 15th of octber2011
--------------------------------------------------------------------------------
DNI ORDER - March 2007

Met CCA on 28-7-11 and presented the resolution of demanding interest for
the delay of implimentation of pension revision
---------------------------------------------------------------------------------
26.07.2011: DPE CIRCULAR ON IDA RATE W.E.F. 1.7.2011: DPE says that
there is no change in existing DA rates w.e.f. 1.7.2011 at 1987, 1992, 1997 and 2007 levels.
Please click here for Circular
------------------------------------------------------------------------------------------------------------
19/07/2011 C/s met joint CCA and CCA. So far CAOs were not rreported. Requested them for making
alternate arrangement for implementing the pension revision. They agreed for the same.
----------------------------------------------------------------------------------
12/7/2011 Met CGM along with Circle President, organising Secretary(South) SK Nair,
Trivandrum District President and discussed the problems.
Also met CCA and discussed implementation of Pension Rivision. He told that 3 CAOs were posted
and waiting for them to join and the pension revision will be implemented in time.
Also handed over the resolutions passed in the Circle conference
------------------------------------------------------------------------------------------------------------

C/S met new joint CCA on 29-6-11 and discussed the implementation of Pre-2007 BSNL Pension rivision
------------------------------------------------------------------------------------------------------------

C/S met CCA on 20-6-11 and discussed the problems
---------------------------------------------------------------------------------------

C/S met new joint CCA on 15-6-11 and discussed the problems
---------------------------------------------------------------------------------------